Don't have an account? Create one!

Dead_InYour_Bed 0.o

Dead_InYour_Bed 0.o
Name:
Tori Zacky Vengeance
Age:
28
Gender:
Female
Location:
in bed wit zacky v

Member since November 10th, 2006

Contact

About

Hi my name is Tori im emo i dont look like it as people thinks emo is a look

92% of teens move on to rap music. If you're part of the 8% that rock out every day, put this in your profile.


__________IIIIIIIIIIIIIIIIIIIIllllllllllll_________
_________________lI_________________
_________________Il_________________
_________________Il_________________
_________________lI_________________
_________________II_________________
_________________II_________________
_________________II_________________
__________IIIIIIIIIIIIIIIIIIIIllllllllllllll________

______8888888888____________________
____888888888888888_________________
__888888822222228888________________
_88888822222222288888_______________
888888222222222228888822228888______
888882222222222222288222222222888___
8888822222222222222222222222222288__
_8888822222222222222222222222222_88_
__88888222222222222222222222222__888
___888822222222222222222222222___888
____8888222222222222222222222____888
_____8888222222222222222222_____888_
______8882222222222222222_____8888__
_______888822222222222______888888__
________8888882222______88888888____
_________888888_____888888888_______
__________88888888888888____________
___________888888888________________
____________88888___________________

888888__________888888_
8888888________8888888_
88888888______88888888_
8888_8888____8888_8888_
8888__8888__8888__8888_
8888___88888888___8888_
8888____888888____8888_
8888_____8888_____8888_
8888______88______8888_
8888______________8888_
8888______________8888_


____88888888888888_____
__88888888888888888____
_888888________88888___
_88888_________________
_88888_________________
_88888
_88888_________________
_888888________88888___
__88888888888888888____
____88888888888888_____


_888888888888888______
_8888888888888888_____
_8888________88888____
_8888________888888___
_88888888888888888____
_8888888888888888_____
_88888_____888888_____
_88888______888888____
_88888_______888888___
_88888________888888__



Rap sucks ass so put this in your profile:

R: Retards
A: Attempting
P: Poetry





do you know what your name means ,cause i know what mine means

T:You're loyal to those you love.
O: awesome kisser
R : Fuckin Crazy.(in a fun way)
I : Great in bed.

Z : Always ready.......
A : You like to drink
C : You are really silly.
K : You're wild and crazy.
Y : Great in bed.

V : You are not judgemental.
E : Great in bed.
N: you like to drink ALOT.
G : You never let people tell you what to do.
E : Great in bed.
A : You like to drink
N: you like to drink ALOT.
C : You are really silly.
E : Great in bed.



and here is the key!
A : You like to drink
B : You like people.
C : You are really silly.
D : one in a million.
E : Great in bed.
F : You are dead sexy
G : You never let people tell you what to do.
H:You have a very good personality,looks and a very good kisser
I : Great in bed.
J : People Adore you
K : You're wild and crazy.
L : Unbelievably great in bed.
M : Great in bed.
N: you like to drink ALOT.
O: awesome kisser
P : You are popular with all types of people.
Q : You are a hypocrite.
R : Fuckin Crazy.(in a fun way)
S : Easy to fall in love with.
T : You're loyal to those you love.
U : You are really silly.
V : You are not judgemental.
W : You are very broad minded.
X : You never let people tell you what to do.
Y : Great in bed.
Z : Always ready.......



_____________$$$$$$$$$$$$$$$$$$$
___________$$$$$$$$$$$$$$$$$$$$$$$
________$$$$___$$$$$$$$$$$$$$$___$$$
______$$$$______$$$$$$$$$$$$______$$$$
____$$$$$________$$$$$$$$$$________$$$$
___$$$$$__________$$$$$$$$___________$$$$
__$$$$$____________$$$$$$____________$$$$$
_$$$$$$____________$$$$$$$____________$$$$$
_$$$$$$___________$$$$$$$$$___________$$$$$$
_$$$$$$$_________$$$_$$$_$$$_________$$$$$$$
_$$$$$$$$______$$$$___$___$$$$______$$$$$$$$
_$$$$$$$$$$$$$$$$$___$$$___$$$$$$$$$$$$$$$$$
_$$$_$$$$$$$$$$$$$$$$$$$$$$$$$$$$$$$$$$$_o$$
_$$$__$$$$$$$$$$$$$$$$$$$$$$$$$$$$$$$$$__$$$
__$$$__$'$$$$$$$$$$$$$$$$$$$$$$$$$$$$$__o$$$
__'$$o__$$__$$'$$$$$$$$$$$$$$'$$__$$_____o$$
____$$o$____$$__'$$'$$'$$'__$$______$___o$$
_____$$$o$__$____$$___$$___$$_____$$__o$
______'$$$$O$____$$____$$___$$ ____o$$$
_________'$$o$$___$$___$$___$$___o$$$
___________'$$$$o$o$o$o$o$o$o$o$$$$'
______________'$$$$$$$$$$$$$$$$$$
PUT THIS ON YOUR PROFILE IF YOU THINK JACK SKELLINGTON IS SEXY OR IF YOU THINK NIGHTMARE BEFORE CHRISTMAS IS ONE OF THE BEST MOVIES EVER!!!!!!!!!!







THE 10 COMMANDMENTS OF MY CHEMICAL ROMANCE:

1. Thou shalt not put a gun to thy lover's head.
2. Thou shalt be willing to die for love.
3. Thou shalt seek revenge on those who wrong you.
4. Thou shalt be a demolition lover.
5. Thou shalt unleash the bats.
6. Thou shalt protect thy lover from everything. (even vampires)
7. Thou shalt respect the lord, Gerard.
8. Thou shalt sing the holy hymns of My Chemical Romance.
9. Thou shalt see beauty in bloody love.
10. Thou shalt rock hard.


OBEY THE TEN COMMANDMENTS OF MCR!

The Ten Commandments of the Black Parade
1.Thou shalt except death as it comes
2.Thou shalt sing and march without question
3.Thou shalt face fear and regret
4.thou shalt let go of thy dreams
5.Thou shalt give blood
6.Thou shalt fear thy sins
7.Thou shalt protect thy brothers in arms
8.Thou shalt darken thy clothes
9.Thou shalt not walk this world alone
10.THOU SHALT CARRY ON!!!







---------------------______
--------------------o|.........|o
--------------------o|.........|o
--------------------o|......../o
--------------------- ..-----/
----------------------||||||
----------------------||||||
--------------------- ||||||
----------------------||||||
----------------------||||||
----------------------||||||
----------------------||||||
----------------------||||||
----------------------||||||
----------------------||||||
----------------------||||||
----------------------||||||
----------------------||||||
----------------------||||||
----------------------||||||
----------------------||||||
----------------------||||||
----------------------||||||
----------------------*||||*
---------------------*||||||*
--------------------*-000-*
-------------------*--000--*
------------------*---|||||||---*
-----------------*----000----*
----------------*-----000-----*
---------------*------||||||------*
--------------*-------(----)------*
-------------*-----------*---------*
------------*-----------*-*---------*
-----------*----------*----*---------*
----------*---------*--------*--------*
---------*--------*------------*------ *
--------*-------*----------------*------*
-------*------*--------------------*-----*
------*-----*------------------------*----*
-----*---*-----------------------------*---*
----*-*----------------------------------*-*

i have an xtra G string who wants it??????
no really its right here
_____________
->



Honey This Mirror Isn’t Big Enough For The Two of Us

Intro:
Guitar 1
(0:00)-(0:44)
e|-----------------|-----------------|-----------------|-----------------|
B|-----------------|-----------------|-----------------|-----------------|
G|-----------------|-----------------|-----------------|-----------------|
D|-----------------|-----------------|-----------------|-----------------|
A|-4-4-4-4-6-6-7-7-|-4-4-4-4-6-6-7-7-|-3-3-3-3-4-4-6-6-|-6-6-6-6-4-4-4-4-|
E|-----------------|-----------------|-----------------|-----------------|


Guitar 2
(0:09)
e|-----------------|-----------------|-----------------|-----------------|
B|-----------------|-----------------|-----------------|-----------------|
G|-6---------------|-5---------------|-----------------|-9---------------|
D|-6---------------|-5---------------|-6---------------|-9---------------|
A|-4---------------|-3---------------|-6---------------|-7---------------|
E|-----------------|-----------------|-4---------------|-----------------|


(0:1Cool
e|-----------------|-----------------|-----------------|-----------------|
B|-----------------|-----------------|-----------------|-----------------|
G|-6---------------|-5---------------|-----------------|-9---------------|
D|-6---------------|-5---------------|-6---------------|-9---------------|
A|-4---------------|-3---------------|-6---------------|-7---------------|
E|-----------------|-----------------|-4---------------|-----------------|


(0:27)
e|-----------------|-----------------|-----------------|-----------------|
B|-----------------|-----------------|-----------------|-----------------|
G|-6--------8--9---|-5--------8--9---|----------8--9---|-11--9---8---9---|
D|-----------------|-----------------|-6---------------|-----------------|
A|-4--------6--7---|-3--------6--7---|----------6--7---|-9---7---6---7---|
E|-----------------|-----------------|-4---------------|-----------------|


(0:35)
e|-----------------|-----------------|-----------------|-----------------|
B|-----------------|-----------------|-----------------|-----------------|
G|-6--------8--9---|-5--------8--9---|----------8--9---|-11--9---8---9---|
D|-----------------|-----------------|-6---------------|-----------------|
A|-4--------6--7---|-3--------6--7---|----------6--7---|-9---7---6---7---|
E|-----------------|-----------------|-4---------------|-----------------|


Verse:
Guitar 1 and 2
(0:44)
e|-----------------|-------------------|-------------------|-------------------|
B|-----------------|-------------------|-------------------|-------------------|
G|-6---------------|-------------------|---6---------------|-------------------|
D|-6---------------|-6-7---------------|-6-6---------------|-6-7---------------|
A|-4-4-4-4-4-4-4-4-|-6-7---------------|-6-4-4-4-4-4-4-4-4-|-6-7---------------|
E|-----------------|-4-5-5-5-5-5-5-5-5-|-4-----------------|-4-5-5-5-5-5-5-5-5-|
PM ............. ............. ............. .............

"The amount of pills I'm taking.."


(0:52)
Guitar 1
e|-----------------|-----------------|-----------------|-----------------|
B|-----------------|-----------------|-----------------|-----------------|
G|---6-6-6-6-6-6-6-|-4-4-4-4-4-4-4-4-|-2-2-2-2-2-2-2-2-|-2-2-2-2-2-2-2-2-|
D|-6-6-6-6-6-6-6-6-|-4-4-4-4-4-4-4-4-|-2-2-2-2-2-2-2-2-|-2-2-2-2-2-2-2-2-|
A|-6-4-4-4-4-4-4-4-|-2-2-2-2-2-2-2-2-|-0-0-0-0-0-0-0-0-|-0-0-0-0-0-0-0-0-|
E|-4---------------|-----------------|-----------------|-----------------|

"Well, I find it hard to stay.."

Guitar 2
e|-----------------|-----------------|-----------------|-----------------|
B|-----------------|-----------------|-----------------|-----------------|
G|---6-6-6-6-6-6-6-|-9-9-9-9-9-9-9-9-|-9-9-9-9-9-9-9-9-|-9-9-9-9-9-9-11--|
D|-6---------------|-----------------|-----------------|-----------------|
A|-6-4-4-4-4-4-4-4-|-7-7-7-7-7-7-7-7-|-7-7-7-7-7-7-7-7-|-7-7-7-7-7-7-9---|
E|-4---------------|-----------------|-----------------|-----------------|

(1:02)
Guitar 1 and 2
e|-----------------|-------------------|-------------------|-------------------|
B|-----------------|-------------------|-------------------|-------------------|
G|-6---------------|-------------------|---6---------------|-------------------|
D|-6---------------|-6-7---------------|-6-6---------------|-6-7---------------|
A|-4-4-4-4-4-4-4-4-|-6-7---------------|-6-4-4-4-4-4-4-4-4-|-6-7---------------|
E|-----------------|-4-5-5-5-5-5-5-5-5-|-4-----------------|-4-5-5-5-5-5-5-5-5-|
PM ............. ............. ............. .............

"Well, I choose the life I've taken.."

(1:11)
Guitar 1
e|-----------------|-----------------|-----------------|-----------------|
B|-----------------|-----------------|-----------------|-----------------|
G|---6-6-6-6-6-6-6-|-4-4-4-4-4-4-4-4-|-2-2-2-2-2-2-2-2-|-2-2-2-2-2-2-2-2-|
D|-6-6-6-6-6-6-6-6-|-4-4-4-4-4-4-4-4-|-2-2-2-2-2-2-2-2-|-2-2-2-2-2-2-2-2-|
A|-6-4-4-4-4-4-4-4-|-2-2-2-2-2-2-2-2-|-0-0-0-0-0-0-0-0-|-0-0-0-0-0-0-0-0-|
E|-4---------------|-----------------|-----------------|-----------------|

"Well, I find it hard to stay.."

Guitar 2
e|-----------------|-----------------|-----------------|-----------------|
B|-----------------|-----------------|-----------------|-----------------|
G|---6-6-6-6-6-6-6-|-9-9-9-9-9-9-9-9-|-9-9-9-9-9-9-9-9-|-9-9-9-9-9-9-11--|
D|-6---------------|-----------------|-----------------|-----------------|
A|-6-4-4-4-4-4-4-4-|-7-7-7-7-7-7-7-7-|-7-7-7-7-7-7-7-7-|-7-7-7-7-7-7-9---|
E|-4---------------|-----------------|-----------------|-----------------|


Chorus:
(1:20)
Guitar 1
e|--------------------------|-------(12)~~~-|-------|
B|-4--5-4-------------------|--(12)~~~------|--5----|
G|--------1-2-----4--4/6~~--|---------------|----6--|
D|--------------------------|---------------|-------|
A|--------------------------|---------------|-------|
E|--------------------------|---HARMONICS---|-------|

"And you can cry all you want to, I don't care how.."


(1:25)
Guitar 1
e|-----------------|-----------------|-----------------|-----------------|
B|-----------------|-----------------|-----------------|-----------------|
G|-----------------|-----------------|-----------------|-----------------|
D|-6-6-6-6-6-6-6-6-|-7-7-7-7-7-7-7-7-|-2-2-2-2-2-2-2-2-|-6-6-6-6-6-6-6-6-|
A|-6-6-6-6-6-6-6-6-|-7-7-7-7-7-7-7-7-|-2-2-2-2-2-2-2-2-|-6-6-6-6-6-6-6-6-|
E|-4-4-4-4-4-4-4-4-|-5-5-5-5-5-5-5-5-|-0-0-0-0-0-0-0-0-|-4-4-4-4-4-4-4-4-|
PM ...............

"Much. You'll invest yourself in me."

Guitar 2
e|-----------------|-----------------|-----------------|-----------------|
B|-----------------|-----------------|-----------------|-----------------|
G|-----------------|-9-9-9-9-9-9-9-9-|-9-9-9-9-9-9-9-9-|-8-8-8-8-8-8-8-8-|
D|-6-6-6-6-6-6-6-6-|-----------------|-----------------|-----------------|
A|-6-6-6-6-6-6-6-6-|-7-7-7-7-7-7-7-7-|-7-7-7-7-7-7-7-7-|-6-6-6-6-6-6-6-6-|
E|-4-4-4-4-4-4-4-4-|-----------------|-----------------|-----------------|
PM ...............

(1:34)
Guitar 1
e|----------------|
B|----------------|
G|----------------|
D|-4--2-4-2-4-2-4-|
A|-4--2-4-2-4-2-4-|
E|-2--0-2-0-2-0-2-|

"..(working out) And.."


(1:36)
Guitar 1
e|-----------------| |-----------------|
B|-----5-5-4-4-----| |-----4-4-5-5-7-7-|
G|-6-6---------4-4-| x3 then |-6-6-------------|
D|-----------------| |-----------------|
A|-----------------| |-----------------|
E|-----------------| |-----------------|

"And you can't touch my friends."


(1:40)
e|-----------------| |-----------------|
B|-----5-5-4-4-----| |-----4-4-5-5-7-7-|
G|-6-6---------4-4-| x3 then |-6-6-------------|
D|-----------------| |-----------------|
A|-----------------| |-----------------|
E|-----------------| |-----------------|

"We're not working out.."

(1:36)
Guitar 2
e|-----------------|-----------------|-----------------|-----------------|
B|-----------------|-----------------|-----------------|-----------------|
G|-6-6-6-6-6-6-6-6-|-4-4-4-4-4-4-4-4-|-----------------|-2-2-2-2-2-2-2-2-|
D|-6-6-6-6-6-6-6-6-|-4-4-4-4-4-4-4-4-|-4-4-4-4-4-4-4-4-|-2-2-2-2-2-2-2-2-|
A|-4-4-4-4-4-4-4-4-|-2-2-2-2-2-2-2-2-|-4-4-4-4-4-4-4-4-|-0-0-0-0-0-0-0-0-|
E|-----------------|-----------------|-2-2-2-2-2-2-2-2-|-----------------|

e|-----------------|
B|-----------------|
G|-2-2-2-2-4-4-4-4-|
D|-2-2-2-2-4-4-4-4-|
A|-0-0-0-0-2-2-2-2-|
E|-----------------|
PM ...............

Verse:
(1:47)
Guitar 1
e|-------------------------|-------------------------|
B|-4-5-4-------------------|-4h5-4--5-5/7--5--7-7/9~-|
G|-------1--4/6-4-2--1h2-1-|-------------------------|
D|-------------------------|-------------------------|
A|-------------------------|-------------------------|
E|-------------------------|-------------------------|

"But I hope I'm not mistaken.."

Guitar 2
e|----------------|
B|----------------|
G|-6--------------|
D|-6--------------|
A|-4--------------|
E|----------------|


(1:55)
Guitar 1
e|-----------------|-----------------|-----------------|-----------------|
B|-----------------|-----------------|-----------------|-----------------|
G|---6-6-6-6-6-6-6-|-4-4-4-4-4-4-4-4-|-2-2-2-2-2-2-2-2-|-2-2-2-2-2-2-2-2-|
D|-6-6-6-6-6-6-6-6-|-4-4-4-4-4-4-4-4-|-2-2-2-2-2-2-2-2-|-2-2-2-2-2-2-2-2-|
A|-6-4-4-4-4-4-4-4-|-2-2-2-2-2-2-2-2-|-0-0-0-0-0-0-0-0-|-0-0-0-0-0-0-0-0-|
E|-4---------------|-----------------|-----------------|-----------------|

"Well, I find it hard to stay.."

Guitar 2
e|-----------------|-----------------|-----------------|-----------------|
B|-----------------|-----------------|-----------------|-----------------|
G|---6-6-6-6-6-6-6-|-9-9-9-9-9-9-9-9-|-9-9-9-9-9-9-9-9-|-9-9-9-9-9-9-11--|
D|-6---------------|-----------------|-----------------|-----------------|
A|-6-4-4-4-4-4-4-4-|-7-7-7-7-7-7-7-7-|-7-7-7-7-7-7-7-7-|-7-7-7-7-7-7-9---|
E|-4---------------|-----------------|-----------------|-----------------|

(2:05)
Guitar 1
e|-----------------|-------------------|-------------------|-------------------|
B|-----------------|-------------------|-------------------|-------------------|
G|-6-6-6-6-6-6-6-6-|-------------------|---6-6-6-6-6-6-6-6-|-------------------|
D|-6-6-6-6-6-6-6-6-|-6-7-7-7-7-7-7-7-7-|-6-6-6-6-6-6-6-6-6-|-6-7-7-7-7-7-7-7-7-|
A|-4-4-4-4-4-4-4-4-|-6-7-7-7-7-7-7-7-7-|-6-4-4-4-4-4-4-4-4-|-6-7-7-7-7-7-7-7-7-|
E|-----------------|-4-5-5-5-5-5-5-5-5-|-4-----------------|-4-5-5-5-5-5-5-5-5-|
PM ............... ................. ................. .................

"Well, I choose this life I've taken.."

Guitar 2
e|----4p0-2p0-2p0--|-----4p0-2p0-2p0---|-----4p0-2p0-2p0---|-----4p0-2p0-2p0---|
B|-0h2-------------|--0h2--------------|--0h2--------------|--0h2--------------|
G|-----------------|-------------------|-------------------|-------------------|
D|-----------------|-------------------|-------------------|-------------------|
A|-----------------|-------------------|-------------------|-------------------|
E|-----------------|-------------------|-------------------|-------------------|

(2:13)
Guitar 1
e|-----------------|-----------------|-----------------|-----------------|
B|-----------------|-----------------|-----------------|-----------------|
G|---6-6-6-6-6-6-6-|-4-4-4-4-4-4-4-4-|-2-2-2-2-2-2-2-2-|-2-2-2-2-2-2-2-2-|
D|-6-6-6-6-6-6-6-6-|-4-4-4-4-4-4-4-4-|-2-2-2-2-2-2-2-2-|-2-2-2-2-2-2-2-2-|
A|-6-4-4-4-4-4-4-4-|-2-2-2-2-2-2-2-2-|-0-0-0-0-0-0-0-0-|-0-0-0-0-0-0-0-0-|
E|-4---------------|-----------------|-----------------|-----------------|

"Well, I find it hard to stay.."

Guitar 2
e|-----------------|-----------------|-----------------|-----------------|
B|-----------------|-----------------|-----------------|-----------------|
G|---6-6-6-6-6-6-6-|-9-9-9-9-9-9-9-9-|-9-9-9-9-9-9-9-9-|-9-9-9-9-9-9-11--|
D|-6---------------|-----------------|-----------------|-----------------|
A|-6-4-4-4-4-4-4-4-|-7-7-7-7-7-7-7-7-|-7-7-7-7-7-7-7-7-|-7-7-7-7-7-7-9---|
E|-4---------------|-----------------|-----------------|-----------------|


Chorus:

Guitar 1
(2:22)
e|--------------------------|-------(12)~~~-|-------|
B|-5--5-4-------------------|--(12)~~~------|--5----|
G|--------1-2-----4--4/6~~--|---------------|----6--|
D|--------------------------|---------------|-------|
A|--------------------------|---------------|-------|
E|--------------------------|---HARMONICS---|-------|

"And you can cry all you want to, I don't care how.."


(2:27)
e|-----------------|-----------------|-----------------|-----------------|
B|-----------------|-----------------|-----------------|-----------------|
G|-----------------|-----------------|-----------------|-----------------|
D|-6-6-6-6-6-6-6-6-|-7-7-7-7-7-7-7-7-|-2-2-2-2-2-2-2-2-|-6-6-6-6-6-6-6-6-|
A|-6-6-6-6-6-6-6-6-|-7-7-7-7-7-7-7-7-|-2-2-2-2-2-2-2-2-|-6-6-6-6-6-6-6-6-|
E|-4-4-4-4-4-4-4-4-|-5-5-5-5-5-5-5-5-|-0-0-0-0-0-0-0-0-|-4-4-4-4-4-4-4-4-|
PM ...............

"Much. You'll invest yourself in me."

Guitar 2
e|-----------------|-----------------|-----------------|-----------------|
B|-----------------|-----------------|-----------------|-----------------|
G|-----------------|-9-9-9-9-9-9-9-9-|-9-9-9-9-9-9-9-9-|-8-8-8-8-8-8-8-8-|
D|-6-6-6-6-6-6-6-6-|-----------------|-----------------|-----------------|
A|-6-6-6-6-6-6-6-6-|-7-7-7-7-7-7-7-7-|-7-7-7-7-7-7-7-7-|-6-6-6-6-6-6-6-6-|
E|-4-4-4-4-4-4-4-4-|-----------------|-----------------|-----------------|
PM ...............

(2:36)
e|----------------|
B|----------------|
G|----------------|
D|-4--2-4-2-4-2-4-|
A|-4--2-4-2-4-2-4-|
E|-2--0-2-0-2-0-2-|

"..(out) And.."

Guitar 1
(2:3Cool
e|-----------------| |-----------------|
B|-----5-5-4-4-----| |-----4-4-5-5-7-7-|
G|-6-6---------4-4-| x3 then |-6-6-------------|
D|-----------------| |-----------------|
A|-----------------| |-----------------|
E|-----------------| |-----------------|

"You can't keep my brother, and you won't fuck my friends."


(2:42)
e|-----------------| |-----------------|
B|-----5-5-4-4-----| |-----4-4-5-5-7-7-|
G|-6-6---------4-4-| x3 then |-6-6-------------|
D|-----------------| |-----------------|
A|-----------------| |-----------------|
E|-----------------| |-----------------|

"We're not working out.."

(2:3Cool
Guitar 2
e|-----------------|-----------------|-----------------|-----------------|
B|-----------------|-----------------|-----------------|-----------------|
G|-6-6-6-6-6-6-6-6-|-4-4-4-4-4-4-4-4-|-----------------|-2-2-2-2-2-2-2-2-|
D|-6-6-6-6-6-6-6-6-|-4-4-4-4-4-4-4-4-|-4-4-4-4-4-4-4-4-|-2-2-2-2-2-2-2-2-|
A|-4-4-4-4-4-4-4-4-|-2-2-2-2-2-2-2-2-|-4-4-4-4-4-4-4-4-|-0-0-0-0-0-0-0-0-|
E|-----------------|-----------------|-2-2-2-2-2-2-2-2-|-----------------|

e|-----------------|
B|-----------------|
G|-2-2-2-2-4-4-4-4-|
D|-2-2-2-2-4-4-4-4-|
A|-0-0-0-0-2-2-2-2-|
E|-----------------|
PM ...............


Ending:
(2:49)
Guitar 1 and 2
e|-------|
B|-------|
G|-6~~~--|
D|-6~~~--|
A|-4~~~--|
E|-------|


(3:06)
Guitar 1
E|-----------------------|
B|-----------------------|
G|-6~~~~\-----8~~~~/9~~--|
D|-----------------------|
A|-4~~~~\-----6~~~~/7~~--|
E|-----------------------|

"Never again.."


(3:14)-(3:47)
Guitar 1
e|----------------------------------------|
B|-2---2---------------2---2-----5---5----|
G|---1---1---4---4-------4---4-----6---6--|
D|-------------6---6----------------------|
A|----------------------------------------|
E|----------------------------------------|

"You can cry all you want to."

(3:14)
Guitar 2
e|-----------------|-----------------|-----------------|-----------------|
B|-----------------|-----------------|-----------------|-----------------|
G|-----------------|-----------------|-----------------|-----------------|
D|-----------------|-----------------|-----------------|-----------------|
A|-4-4-4-4-6-6-7-7-|-3-3-3-3-6-6-7-7-|---------6-6-7-7-|-6-6-6-6-4-4-4-4-|
E|-----------------|-----------------|-4-4-4-4---------|-----------------|
PM .....................................................................



(3:31)
Guitar 2
e|-----------------|-----------------|-----------------|-----------------|
B|-----------------|-----------------|-----------------|-----------------|
G|-----------------|-----------------|-----------------|-----------------|
D|-----------------|-----------------|-----------------|-----------------|
A|-4-4-4-4-6-6-7-7-|-3-3-3-3-6-6-7-7-|---------6-6-7-7-|-6-6-6-6-4-4-4-4-|
E|-----------------|-----------------|-4-4-4-4---------|-----------------|

"Oh baby let me in.."


(3:40)
e|-----------------|-----------------|-----------------|-----------------|
B|-----------------|-----------------|-----------------|-----------------|
G|-----------------|-----------------|-----------------|-----------------|
D|-----------------|-----------------|-----------------|-----------------|
A|-4-4-4-4-6-6-7-7-|-3-3-3-3-6-6-7-7-|---------6-6-7-7-|-6-6-6-6-4-4-4-4-|
E|-----------------|-----------------|-4-4-4-4---------|-----------------|

"Oh baby let me in.."


(3:47)
Guitar 1 and 2
e|----|
B|----|
G|-6--|
D|-6--|
A|-4--|
E|----|

"In."






.....@.@.@.@..@...@
....@........@..........@
...@............@... .@.@
...@..............@@....@
....@..............@ ...@
......@...........@. .@
.........@......@..@
..............@..@
.From...........@
......Me..........@
............To......@
................You. @........@@@
......@@@@..@....@.. ............@
...@.............@@@ ......@@
.......@@@.......@.. @@
.................... .....@
.................... .....@
.................... .....@
.................... .....@
.................... .....@
.................... ....@
.................... ...@







(\__/)
(='.'=)
(*)_(*) DIS MY SEXY BUNNY!!!!!!
Bunny:"HI IM BUNNY!!"
(\o.o/)
(='.'=)
(*)_(*) DIS MY SEXY GURL BUNNY!!!!!!

okay im bisexual so yeah
i hate having sex wit gurls who have strap on dicks
i like to makeout wit gurls only if im dunk and high ill have sex wit you "
i luv to have sex wit guys







READ THIS
V V
I am the boy who never finished high school, because I got called a fag everyday. I am the girl kicked out of her home because I confided in my mother that I am a lesbian. I am the prostitute working the streets because nobody will hire a transsexual woman. I am the sister who holds her gay brother tight through the painful, tear-filled nights. We are the parents who buried our daughter long before her time. I am the man who died alone in the hospital because they would not let my partner of twenty-seven years into the room. I am the foster child who wakes up with nightmares of being taken away from the two fathers who are the only loving family I have ever had. I wish they could adopt me. I am not one of the lucky ones. I killed myself just weeks before graduating high school. It was simply too much to bear. We are the couple who had the realtor hang up on us when she found out we wanted to rent a one-bedroom for two men. I am the person who never knows which bathroom I should use if I want to avoid getting the management called on me. I am the mother who is not allowed to even visit the children I bore, nursed, and raised. The court says I am an unfit mother because I now live with another woman. I am the domestic-violence survivor who found the support system grow suddenly cold and distant when they found out my abusive partner is also a woman. I am the domestic-violence survivor who has no support system to turn to because I am male. I am the father who has never hugged his son because I grew up afraid to show affection to other men. I am the home-economics teacher who always wanted to teach gym until someone told me that only lesbians do that. I am the woman who died when the EMTs stopped treating me as soon as they realized I was transsexual. I am the person who feels guilty because I think I could be a much better person if I didnt have to always deal with society hating me. I am the man who stopped attending church, not because I don't believe, but because they closed their doors to my kind. I am the person who has to hide what this world needs most, love. I am the person ashamed to tell my own friends im a lesbian, because they constantly make fun of them. I am the boy tied to a fence, beaten to a bloody pulp and left to die because two straight men wanted to "teach me a lesson" ---IF YOU BELIEVE THAT HOMOPHOBIA IS WRONG... REPOST THIS



My fav Bands:
My Chemical Romance
Bullet for my Valentine
Three Days Grace
30 seconds to Mars
Cartel
Queen
A.F.I
The Academy is..
From First to Last
Underoath
Velvet Revolver
Green Day
Guns and Roses
Hawthorne Heights
The Misfits
Iron Maiden
Panic! At the Disco
The Used
Hellogoodbye
Flyleaf
Coheed and Cambria
FallOut Boy
Avenged Sevenfold
AC/DC
Linkin Park
The Almost
Sixx:A.M.


im insane
dont piss me off
or suffer my rath

R.I.P. Mario
i<3 and miss u
we will never forget u
1992-2006



R.I.P. Peter aka Bubba
died september 27, 2007
around 8:00pm
we iove u man



..._...|..____________________,
....../ `---___________----_____|]
...../_==o;;;;;;;;_______.:/
.....), ---.(_(__) /
....// (..) ), ----"
...//___//
..//___//
.//___//







*BANG!*

..._...|..____________________,
....../ `---___________----_____|] _ - _ - D
...../_==o;;;;;;;;_______.:/
.....), ---.(_(__) /
....// (..) ), ----"
...//___//
..//___//
.//___//





Ways to Tell If You're a Real My Chemical Romance Fan
-----------------------------------------------------------------------------------------
1.Real MCR fans know more songs than "Welcome to the Black Parade."
2. Real MCR fans know Gerard Way's brother's name.
3. Real MCR fans shout 'YES!' when one of their songs comes on.
4. Real MCR fans punch their cousins/brothers/parents/friends for dissing Gerard's hair.
5. Real MCR fans punch their cousins/brothers/parents/friends for dissing Gerard in general.
6. Real MCR fans know the names of everyone in the band and what they do.
7. Real MCR fans shop for hours just to find a jacket like the band's have for a MCR concert. {{{i've yet to do this and it makes me sad}}}
8. Real MCR fans take time to right on the front of all their underwear "I love Gerard."
9. Real MCR fans ask their mom "What's for dinner?" and are disappointed when she doesn't say Gerard.
10. Real MCR fans start smoking because they think they will be HAWT like Frank and Gerard.
11. Real MCR fans ask for Bob the Bryar for christmas and cry when they don't get him.
12. Real MCR fans do dirty things with their MCR action figures and are proud to admit it.
13. Real MCR fans sleep with a picture of MCR and actually have to wipe off the drool stains.
14. Real MCR fans piss themselves when they see them... on the televison.
15. Real MCR fans would admit to let them rape you.
16. Real MCR fans go in a rendition of Three Cheers For Sweet Revenge when they hear a guy in a restaurant say "So Long" (HECK YES!!)
17. Real MCR fans have this on their profile.
18. Real MCR fans giggle everytime Gerard Way says the word 'way' in his songs
19. Real MCR fans will scream "HAPPY BIRTHDAY, **insert bandmembers name here**!!" on his birthday, regardless of how quiet the room is.
20. Real MCR fans watch "Life On the Murder Scene" twice a day then apologize to plants.
21. Real MCR fans often zone out, listening to MCR in their heads, and when someone asks them a question they scream the lyrics they were just thinking of.
22. Real MCR fans write 'my' and 'romance' around the word 'chemical' when in science class.
23. Real MCR fans when hearing any word even slightly associated with MCR on the television, insantly freak out and turn up the volume.
24. Real MCR fans eat skittles and drink coke zero three times daily.
25. Real MCR fans have every MCR picture possible saved on their computer, and admit it proudly.
26. Real MCR fans have actually read and re-read and re-re-read etc. any MCR webpages they could find.
27. Real MCR fans can listen to a MCR song repeatidly and not get tired of said song. (no matter how many times you listen!)
28.Real MCR fans hear New Jersy and instantly think MCR MCR MCR MCR MCR!!!!!!
29. Real MCR fans try their hardest to mention MCR in any project at school.
30. Real MCR fans spaz out when they see the word 'way' in books, on trucks, anywhere.{{{ i have done this quite a few times!!}}}
31. You have at least one MCRSavedMyLife story
32.When someone says "'fro," you say "Ray Toro!"
33.When someone says "Chemical," or "Romance," you think..."MCR!"
34. When you think of New Jersey, you think of Belleville.
35. When someone talks about St. Helena, Montana, you think Helena.
36. You've had their CD for two weeks and iTunes says it's been played at least 46 times.(100 and something…)
37. You have mixed feelings about the Used. Bert? Or Gerard?
38. You wake up at two AM thinking about Mikey.
39. You view Alicia Simmons as the new Adrienne Armstrong.
40. You truly believe the Black Parade will come to you when you die (Hello Gerard!)
41. You believe they should hire you to be in all their videos since you dance to the songs like nobody's business.
42. Black is your favorite color.
43. The only reason you watch 24 is so you can have something in common with Ray.
44. It pains you to watch Aqua Teen Hunger Force because of the rejection it caused Gerard.
45. You know Bob is a fuzzy bunny and Frank is a princess.
46. You wouldn't mind watching Gerard draw all day.
47. You count the days to and from your MCR concerts.
48. You have their tour schedule on a Word Document on your computer.
49. You've written at least one fanfic.
50. You'd join the TMNT, just to be with Bob.
51. You wouldn't mind Gerard and Mikey smellling like shit if it meant you got to go on tour with them!
52. You'd offer Frank your shower at 3 AM.
53. Even your parents know the words to Welcome to the Black Parade.
54. You dye your hair like Gerard did a few years ago and lament as that random red splotch at the back of your head fades away.
55.You scream when your parents accidentally throw away the review of the show you went to a week before. Then you immediately get it off the internet.
56. None of your friends like them but they could probably write a book on them you talk about them so much.
57. You've Googled their high schools.
58. You adhere to the MCR Bible, the Ten Commandments of the Black Parade, the Ten Commandments of Gerard Way and the Ten Commandments of a Chemical Romantic.
59. You don't care anymore when people call them emo because you know they're not.
60. You'd cut off Bob and Ray's hair if it meant you could have it all to yourself.
61. You relate to Mikey and his unicorn/coffee/sushi fetish.
62. You really wish Frank would talk on stage.
63. You celebrate their birthdays with religion. Yes, that means costumes.
64. You've named pets/stuffed animals/instruments after them ("C'mere Mikey! Good boy Mikey, good boy!"
65. The people in your band have set a ban on you singing anymore MCR at practice. Needless to say, this is a rule meant to be broken.
66. You sneak into your computer lab at school at lunch to watch their videos.
67. You call your younger sister "Mikey." Therefore, she hates you. But you can't help that she is skinny, tallish and wears glasses.
68. You plan on making a pilgrimage to Belleville, New Jersey as soon as possible.
69. You listen to every band they say they like during interviews.
70. You only tolerate Brandon Flowers because Gerard Way says he likes the Killers and Brandon likes MCR.
71. Your daydreams consist of commentary on your school day by Mikey, Frank, Gerard, Bob and Ray.
72. You call Gerard "Gee."
73.Your friends all get a glazed look when you mention MCR.
74. You've read Ecstasy: Three Tales of Chemical Romance, by Irvine Welsh.
75. You wrote an essay about how you admire Gerard when your English teacher told you that you had to write something about someone you admired.
76. You're known to wear a black stripe over your eyes to school when you're feeling extra MCR-ish.
77. Life on the Murder Scene=LOTMS
78. You support Bob Bryar's solo project.
79. Even if they went gansta, you'd still love them.
80. You just wrote and/or read this (or forced a friend too.)






Photos

  • Photo #11293

  • Photo #11292

  • Photo #7506

    me boys

Comments

  • lyingnext2u

    What the f*cks up man I'm not dead how are you doing? You never called me dude it hurts wahhh but no I just couldn't wrote you because my place won't let me contact the outside world but I'm coming home in June so well hsmg

    lyingnext2u, February 15th, 2009 at 04:17:42am

  • i am alive

    cool profile and sya

    i am alive, June 9th, 2008 at 06:11:36am

  • jonas erik altberg.

    Yaaaahh, i'm fine, youu/
    I'm revising, which i never do. xD

    jonas erik altberg., May 21st, 2008 at 01:03:28pm

  • jonas erik altberg.

    Haha, ¬¬
    How are you?
    You haven't spoken in like, yearrsss.
    xxx

    jonas erik altberg., May 20th, 2008 at 11:24:20am

  • jonas erik altberg.

    haha. this is VERY awkward.

    I'm zacky v.
    And your current locatuion is 'in bed wit zacky v''

    o_O
    ;0

    jonas erik altberg., March 18th, 2008 at 08:29:51am

  • lyingnext2u

    hey f*cker wjy havemt you wrote me bakk okay ill leave....damn it

    lyingnext2u, January 23rd, 2008 at 03:29:57pm

  • ElmoPansy

    Hi. I was reading your profile and saw the guitar tabs for "Honey". You play guitar?

    ElmoPansy, December 3rd, 2007 at 04:12:52am

  • October_Suicide!

    heya . . . so ur bi thts kwl im str8 btw lol bt i recn tht most by or gays r beta thn str8s evn if i am tho lol so yer chek my page out, coment me, deny me wteva u do is ur choice lol xoxo

    October_Suicide!, November 18th, 2007 at 05:55:59am

  • alexander

    hey lady!!! :3

    alexander, October 28th, 2007 at 09:12:06am

  • jonas erik altberg.

    Haaaaaa, your IMAGINARY bals, that is.
    xxxxxxxxxxx
    (( piss off, there all mine! ojojoj ))

    jonas erik altberg., October 26th, 2007 at 02:39:11pm

  • lyingnext2u

    taylor i miss you sooo much call me at 619-397-6963

    lyingnext2u, October 17th, 2007 at 09:27:16pm

  • lyingnext2u

    taylor i miss you sooo much call me at 619-397-6963

    lyingnext2u, October 17th, 2007 at 09:27:16pm

  • lyingnext2u

    taylor i miss you sooo much call me at 619-397-6963

    lyingnext2u, October 17th, 2007 at 09:27:14pm

  • lyingnext2u

    taylor i miss you sooo much call me at 619-397-6963

    lyingnext2u, October 17th, 2007 at 09:27:09pm

  • damn dick disaster

    Hey, how's it goin'? Zach's pretty hot, but I like Jimmy better.

    damn dick disaster, October 3rd, 2007 at 08:04:40pm

Page 1/2 | Next

Post a comment


You have to log in before you post a comment.